ISO-10303-21;
HEADER;
/* Generated by software containing ST-Developer
 * from STEP Tools, Inc. (www.steptools.com) 
 */

FILE_DESCRIPTION(
/* description */ (''),
/* implementation_level */ '2;1');

FILE_NAME(
/* name */ 'endcap v2.step',
/* time_stamp */ '2023-09-03T12:14:49-07:00',
/* author */ (''),
/* organization */ (''),
/* preprocessor_version */ 'ST-DEVELOPER v20',
/* originating_system */ 'Autodesk Translation Framework v12.9.0.99',
/* authorisation */ '');

FILE_SCHEMA (('AUTOMOTIVE_DESIGN { 1 0 10303 214 3 1 1 }'));
ENDSEC;

DATA;
#10=MECHANICAL_DESIGN_GEOMETRIC_PRESENTATION_REPRESENTATION('',(#13),#201);
#11=SHAPE_REPRESENTATION_RELATIONSHIP('SRR','None',#208,#12);
#12=ADVANCED_BREP_SHAPE_REPRESENTATION('',(#14),#200);
#13=STYLED_ITEM('',(#217),#14);
#14=MANIFOLD_SOLID_BREP('Body1',#106);
#15=FACE_BOUND('',#35,.T.);
#16=FACE_BOUND('',#38,.T.);
#17=PLANE('',#125);
#18=PLANE('',#129);
#19=PLANE('',#133);
#20=PLANE('',#134);
#21=CYLINDRICAL_SURFACE('',#123,10.3);
#22=CYLINDRICAL_SURFACE('',#127,9.45);
#23=CYLINDRICAL_SURFACE('',#131,11.4);
#24=FACE_OUTER_BOUND('',#32,.T.);
#25=FACE_OUTER_BOUND('',#33,.T.);
#26=FACE_OUTER_BOUND('',#34,.T.);
#27=FACE_OUTER_BOUND('',#36,.T.);
#28=FACE_OUTER_BOUND('',#37,.T.);
#29=FACE_OUTER_BOUND('',#39,.T.);
#30=FACE_OUTER_BOUND('',#40,.T.);
#31=FACE_OUTER_BOUND('',#41,.T.);
#32=EDGE_LOOP('',(#75,#76,#77,#78));
#33=EDGE_LOOP('',(#79,#80,#81,#82));
#34=EDGE_LOOP('',(#83));
#35=EDGE_LOOP('',(#84));
#36=EDGE_LOOP('',(#85,#86,#87,#88));
#37=EDGE_LOOP('',(#89));
#38=EDGE_LOOP('',(#90));
#39=EDGE_LOOP('',(#91,#92,#93,#94));
#40=EDGE_LOOP('',(#95));
#41=EDGE_LOOP('',(#96));
#42=LINE('',#176,#46);
#43=LINE('',#180,#47);
#44=LINE('',#187,#48);
#45=LINE('',#195,#49);
#46=VECTOR('',#141,10.05);
#47=VECTOR('',#146,10.3);
#48=VECTOR('',#155,9.45);
#49=VECTOR('',#166,11.4);
#50=CIRCLE('',#121,9.8);
#51=CIRCLE('',#122,10.3);
#52=CIRCLE('',#124,10.3);
#53=CIRCLE('',#126,9.45);
#54=CIRCLE('',#128,9.45);
#55=CIRCLE('',#130,11.4);
#56=CIRCLE('',#132,11.4);
#57=VERTEX_POINT('',#173);
#58=VERTEX_POINT('',#175);
#59=VERTEX_POINT('',#179);
#60=VERTEX_POINT('',#183);
#61=VERTEX_POINT('',#186);
#62=VERTEX_POINT('',#190);
#63=VERTEX_POINT('',#193);
#64=EDGE_CURVE('',#57,#57,#50,.T.);
#65=EDGE_CURVE('',#57,#58,#42,.T.);
#66=EDGE_CURVE('',#58,#58,#51,.T.);
#67=EDGE_CURVE('',#58,#59,#43,.T.);
#68=EDGE_CURVE('',#59,#59,#52,.T.);
#69=EDGE_CURVE('',#60,#60,#53,.T.);
#70=EDGE_CURVE('',#60,#61,#44,.T.);
#71=EDGE_CURVE('',#61,#61,#54,.T.);
#72=EDGE_CURVE('',#62,#62,#55,.T.);
#73=EDGE_CURVE('',#63,#63,#56,.T.);
#74=EDGE_CURVE('',#63,#62,#45,.T.);
#75=ORIENTED_EDGE('',*,*,#64,.T.);
#76=ORIENTED_EDGE('',*,*,#65,.T.);
#77=ORIENTED_EDGE('',*,*,#66,.T.);
#78=ORIENTED_EDGE('',*,*,#65,.F.);
#79=ORIENTED_EDGE('',*,*,#66,.F.);
#80=ORIENTED_EDGE('',*,*,#67,.T.);
#81=ORIENTED_EDGE('',*,*,#68,.F.);
#82=ORIENTED_EDGE('',*,*,#67,.F.);
#83=ORIENTED_EDGE('',*,*,#64,.F.);
#84=ORIENTED_EDGE('',*,*,#69,.T.);
#85=ORIENTED_EDGE('',*,*,#69,.F.);
#86=ORIENTED_EDGE('',*,*,#70,.T.);
#87=ORIENTED_EDGE('',*,*,#71,.F.);
#88=ORIENTED_EDGE('',*,*,#70,.F.);
#89=ORIENTED_EDGE('',*,*,#72,.T.);
#90=ORIENTED_EDGE('',*,*,#68,.T.);
#91=ORIENTED_EDGE('',*,*,#73,.F.);
#92=ORIENTED_EDGE('',*,*,#74,.T.);
#93=ORIENTED_EDGE('',*,*,#72,.F.);
#94=ORIENTED_EDGE('',*,*,#74,.F.);
#95=ORIENTED_EDGE('',*,*,#71,.T.);
#96=ORIENTED_EDGE('',*,*,#73,.T.);
#97=CONICAL_SURFACE('',#120,10.05,0.785398163397449);
#98=ADVANCED_FACE('',(#24),#97,.T.);
#99=ADVANCED_FACE('',(#25),#21,.T.);
#100=ADVANCED_FACE('',(#26,#15),#17,.T.);
#101=ADVANCED_FACE('',(#27),#22,.F.);
#102=ADVANCED_FACE('',(#28,#16),#18,.T.);
#103=ADVANCED_FACE('',(#29),#23,.T.);
#104=ADVANCED_FACE('',(#30),#19,.T.);
#105=ADVANCED_FACE('',(#31),#20,.F.);
#106=CLOSED_SHELL('',(#98,#99,#100,#101,#102,#103,#104,#105));
#107=DERIVED_UNIT_ELEMENT(#109,1.);
#108=DERIVED_UNIT_ELEMENT(#203,-3.);
#109=(
MASS_UNIT()
NAMED_UNIT(*)
SI_UNIT(.KILO.,.GRAM.)
);
#110=DERIVED_UNIT((#107,#108));
#111=MEASURE_REPRESENTATION_ITEM('density measure',
POSITIVE_RATIO_MEASURE(7850.),#110);
#112=PROPERTY_DEFINITION_REPRESENTATION(#117,#114);
#113=PROPERTY_DEFINITION_REPRESENTATION(#118,#115);
#114=REPRESENTATION('material name',(#116),#200);
#115=REPRESENTATION('density',(#111),#200);
#116=DESCRIPTIVE_REPRESENTATION_ITEM('Steel','Steel');
#117=PROPERTY_DEFINITION('material property','material name',#210);
#118=PROPERTY_DEFINITION('material property','density of part',#210);
#119=AXIS2_PLACEMENT_3D('',#171,#135,#136);
#120=AXIS2_PLACEMENT_3D('',#172,#137,#138);
#121=AXIS2_PLACEMENT_3D('',#174,#139,#140);
#122=AXIS2_PLACEMENT_3D('',#177,#142,#143);
#123=AXIS2_PLACEMENT_3D('',#178,#144,#145);
#124=AXIS2_PLACEMENT_3D('',#181,#147,#148);
#125=AXIS2_PLACEMENT_3D('',#182,#149,#150);
#126=AXIS2_PLACEMENT_3D('',#184,#151,#152);
#127=AXIS2_PLACEMENT_3D('',#185,#153,#154);
#128=AXIS2_PLACEMENT_3D('',#188,#156,#157);
#129=AXIS2_PLACEMENT_3D('',#189,#158,#159);
#130=AXIS2_PLACEMENT_3D('',#191,#160,#161);
#131=AXIS2_PLACEMENT_3D('',#192,#162,#163);
#132=AXIS2_PLACEMENT_3D('',#194,#164,#165);
#133=AXIS2_PLACEMENT_3D('',#196,#167,#168);
#134=AXIS2_PLACEMENT_3D('',#197,#169,#170);
#135=DIRECTION('axis',(0.,0.,1.));
#136=DIRECTION('refdir',(1.,0.,0.));
#137=DIRECTION('center_axis',(0.,0.,-1.));
#138=DIRECTION('ref_axis',(-1.,0.,0.));
#139=DIRECTION('center_axis',(0.,0.,-1.));
#140=DIRECTION('ref_axis',(-1.,0.,0.));
#141=DIRECTION('',(0.707106781186548,8.65956056235494E-17,-0.707106781186547));
#142=DIRECTION('center_axis',(0.,0.,1.));
#143=DIRECTION('ref_axis',(-1.,0.,0.));
#144=DIRECTION('center_axis',(0.,0.,1.));
#145=DIRECTION('ref_axis',(-1.,0.,0.));
#146=DIRECTION('',(0.,0.,-1.));
#147=DIRECTION('center_axis',(0.,0.,-1.));
#148=DIRECTION('ref_axis',(-1.,0.,0.));
#149=DIRECTION('center_axis',(0.,0.,1.));
#150=DIRECTION('ref_axis',(-1.,0.,0.));
#151=DIRECTION('center_axis',(0.,0.,-1.));
#152=DIRECTION('ref_axis',(-1.,0.,0.));
#153=DIRECTION('center_axis',(0.,0.,1.));
#154=DIRECTION('ref_axis',(-1.,0.,0.));
#155=DIRECTION('',(0.,0.,-1.));
#156=DIRECTION('center_axis',(0.,0.,1.));
#157=DIRECTION('ref_axis',(-1.,0.,0.));
#158=DIRECTION('center_axis',(0.,0.,1.));
#159=DIRECTION('ref_axis',(1.,0.,0.));
#160=DIRECTION('center_axis',(0.,0.,1.));
#161=DIRECTION('ref_axis',(1.,0.,0.));
#162=DIRECTION('center_axis',(0.,0.,-1.));
#163=DIRECTION('ref_axis',(1.,0.,0.));
#164=DIRECTION('center_axis',(0.,0.,-1.));
#165=DIRECTION('ref_axis',(1.,0.,0.));
#166=DIRECTION('',(0.,0.,1.));
#167=DIRECTION('center_axis',(0.,0.,1.));
#168=DIRECTION('ref_axis',(1.,0.,0.));
#169=DIRECTION('center_axis',(0.,0.,1.));
#170=DIRECTION('ref_axis',(1.,0.,0.));
#171=CARTESIAN_POINT('',(0.,0.,0.));
#172=CARTESIAN_POINT('Origin',(0.,0.,4.75));
#173=CARTESIAN_POINT('',(9.8,-1.20015386316441E-15,5.));
#174=CARTESIAN_POINT('Origin',(0.,0.,5.));
#175=CARTESIAN_POINT('',(10.3,1.26138620312177E-15,4.5));
#176=CARTESIAN_POINT('',(10.05,1.23077003314309E-15,4.75));
#177=CARTESIAN_POINT('Origin',(0.,0.,4.5));
#178=CARTESIAN_POINT('Origin',(0.,0.,0.));
#179=CARTESIAN_POINT('',(10.3,1.26138620312177E-15,0.));
#180=CARTESIAN_POINT('',(10.3,1.26138620312177E-15,0.));
#181=CARTESIAN_POINT('Origin',(0.,0.,0.));
#182=CARTESIAN_POINT('Origin',(0.,0.,5.));
#183=CARTESIAN_POINT('',(9.45,1.15729122519425E-15,5.));
#184=CARTESIAN_POINT('Origin',(0.,0.,5.));
#185=CARTESIAN_POINT('Origin',(0.,0.,0.));
#186=CARTESIAN_POINT('',(9.45,1.15729122519425E-15,0.));
#187=CARTESIAN_POINT('',(9.45,1.15729122519425E-15,0.));
#188=CARTESIAN_POINT('Origin',(0.,0.,0.));
#189=CARTESIAN_POINT('Origin',(0.,0.,0.));
#190=CARTESIAN_POINT('',(-11.4,-1.39609735102798E-15,0.));
#191=CARTESIAN_POINT('Origin',(0.,0.,0.));
#192=CARTESIAN_POINT('Origin',(0.,0.,0.));
#193=CARTESIAN_POINT('',(-11.4,-1.39609735102798E-15,-7.));
#194=CARTESIAN_POINT('Origin',(0.,0.,-7.));
#195=CARTESIAN_POINT('',(-11.4,1.39609735102798E-15,0.));
#196=CARTESIAN_POINT('Origin',(0.,0.,0.));
#197=CARTESIAN_POINT('Origin',(0.,0.,-7.));
#198=UNCERTAINTY_MEASURE_WITH_UNIT(LENGTH_MEASURE(0.01),#202,
'DISTANCE_ACCURACY_VALUE',
'Maximum model space distance between geometric entities at asserted c
onnectivities');
#199=UNCERTAINTY_MEASURE_WITH_UNIT(LENGTH_MEASURE(0.01),#202,
'DISTANCE_ACCURACY_VALUE',
'Maximum model space distance between geometric entities at asserted c
onnectivities');
#200=(
GEOMETRIC_REPRESENTATION_CONTEXT(3)
GLOBAL_UNCERTAINTY_ASSIGNED_CONTEXT((#198))
GLOBAL_UNIT_ASSIGNED_CONTEXT((#202,#204,#205))
REPRESENTATION_CONTEXT('','3D')
);
#201=(
GEOMETRIC_REPRESENTATION_CONTEXT(3)
GLOBAL_UNCERTAINTY_ASSIGNED_CONTEXT((#199))
GLOBAL_UNIT_ASSIGNED_CONTEXT((#202,#204,#205))
REPRESENTATION_CONTEXT('','3D')
);
#202=(
LENGTH_UNIT()
NAMED_UNIT(*)
SI_UNIT(.MILLI.,.METRE.)
);
#203=(
LENGTH_UNIT()
NAMED_UNIT(*)
SI_UNIT($,.METRE.)
);
#204=(
NAMED_UNIT(*)
PLANE_ANGLE_UNIT()
SI_UNIT($,.RADIAN.)
);
#205=(
NAMED_UNIT(*)
SI_UNIT($,.STERADIAN.)
SOLID_ANGLE_UNIT()
);
#206=SHAPE_DEFINITION_REPRESENTATION(#207,#208);
#207=PRODUCT_DEFINITION_SHAPE('',$,#210);
#208=SHAPE_REPRESENTATION('',(#119),#200);
#209=PRODUCT_DEFINITION_CONTEXT('part definition',#214,'design');
#210=PRODUCT_DEFINITION('endcap','endcap v1',#211,#209);
#211=PRODUCT_DEFINITION_FORMATION('',$,#216);
#212=PRODUCT_RELATED_PRODUCT_CATEGORY('endcap v1','endcap v1',(#216));
#213=APPLICATION_PROTOCOL_DEFINITION('international standard',
'automotive_design',2009,#214);
#214=APPLICATION_CONTEXT(
'Core Data for Automotive Mechanical Design Process');
#215=PRODUCT_CONTEXT('part definition',#214,'mechanical');
#216=PRODUCT('endcap','endcap v1',$,(#215));
#217=PRESENTATION_STYLE_ASSIGNMENT((#218));
#218=SURFACE_STYLE_USAGE(.BOTH.,#219);
#219=SURFACE_SIDE_STYLE('',(#220));
#220=SURFACE_STYLE_FILL_AREA(#221);
#221=FILL_AREA_STYLE('Steel - Satin',(#222));
#222=FILL_AREA_STYLE_COLOUR('Steel - Satin',#223);
#223=COLOUR_RGB('Steel - Satin',0.627450980392157,0.627450980392157,0.627450980392157);
ENDSEC;
END-ISO-10303-21;
