ISO-10303-21;
HEADER;
/* Generated by software containing ST-Developer
 * from STEP Tools, Inc. (www.steptools.com) 
 */

FILE_DESCRIPTION(
/* description */ (''),
/* implementation_level */ '2;1');

FILE_NAME(
/* name */ 
'/Users/karl/Documents/Printables/Mine/ws3-pm2.5/publish/LID.step',
/* time_stamp */ '2020-08-24T16:36:40-07:00',
/* author */ (''),
/* organization */ (''),
/* preprocessor_version */ 'ST-DEVELOPER v18.1',
/* originating_system */ 'Autodesk Translation Framework v9.3.0.1241',
/* authorisation */ '');

FILE_SCHEMA (('AUTOMOTIVE_DESIGN { 1 0 10303 214 3 1 1 }'));
ENDSEC;

DATA;
#10=MECHANICAL_DESIGN_GEOMETRIC_PRESENTATION_REPRESENTATION('',(#17),#280);
#11=ITEM_DEFINED_TRANSFORMATION($,$,#162,#174);
#12=(
REPRESENTATION_RELATIONSHIP($,$,#291,#290)
REPRESENTATION_RELATIONSHIP_WITH_TRANSFORMATION(#11)
SHAPE_REPRESENTATION_RELATIONSHIP()
);
#13=CONTEXT_DEPENDENT_SHAPE_REPRESENTATION(#12,#289);
#14=NEXT_ASSEMBLY_USAGE_OCCURRENCE('rain lid:1','rain lid:1',
'rain lid:1',#293,#294,'rain lid:1');
#15=SHAPE_REPRESENTATION_RELATIONSHIP('SRR','None',#291,#16);
#16=ADVANCED_BREP_SHAPE_REPRESENTATION('',(#18),#279);
#17=STYLED_ITEM('',(#304),#18);
#18=MANIFOLD_SOLID_BREP('Body1',#148);
#19=(
BOUNDED_SURFACE()
B_SPLINE_SURFACE(1,2,((#243,#244,#245,#246,#247),(#248,#249,#250,#251,#252)),
 .UNSPECIFIED.,.F.,.F.,.F.)
B_SPLINE_SURFACE_WITH_KNOTS((2,2),(3,2,3),(0.,1.73913043478261),(-1.07087636056854,
0.227450465941603,1.52577729245175),.UNSPECIFIED.)
GEOMETRIC_REPRESENTATION_ITEM()
RATIONAL_B_SPLINE_SURFACE(((1.,0.796589810834742,1.,0.796589810834742,1.),
(1.,0.796589810834742,1.,0.796589810834742,1.)))
REPRESENTATION_ITEM('')
SURFACE()
);
#20=(
BOUNDED_SURFACE()
B_SPLINE_SURFACE(1,2,((#256,#257,#258,#259,#260),(#261,#262,#263,#264,#265)),
 .UNSPECIFIED.,.F.,.F.,.F.)
B_SPLINE_SURFACE_WITH_KNOTS((2,2),(3,2,3),(0.,1.72814638552587),(-4.66736994604154,
-3.3690431195314,-2.07071629302125),.UNSPECIFIED.)
GEOMETRIC_REPRESENTATION_ITEM()
RATIONAL_B_SPLINE_SURFACE(((1.,0.796589810834743,1.,0.796589810834743,1.),
(1.,0.796589810834743,1.,0.796589810834743,1.)))
REPRESENTATION_ITEM('')
SURFACE()
);
#21=FACE_OUTER_BOUND('',#29,.T.);
#22=FACE_OUTER_BOUND('',#30,.T.);
#23=FACE_OUTER_BOUND('',#31,.T.);
#24=FACE_OUTER_BOUND('',#32,.T.);
#25=FACE_OUTER_BOUND('',#33,.T.);
#26=FACE_OUTER_BOUND('',#34,.T.);
#27=FACE_OUTER_BOUND('',#35,.T.);
#28=FACE_OUTER_BOUND('',#36,.T.);
#29=EDGE_LOOP('',(#98,#99,#100,#101,#102));
#30=EDGE_LOOP('',(#103,#104,#105,#106,#107,#108));
#31=EDGE_LOOP('',(#109,#110,#111));
#32=EDGE_LOOP('',(#112,#113,#114,#115,#116));
#33=EDGE_LOOP('',(#117,#118,#119,#120));
#34=EDGE_LOOP('',(#121,#122,#123));
#35=EDGE_LOOP('',(#124,#125,#126));
#36=EDGE_LOOP('',(#127,#128,#129,#130,#131,#132,#133));
#37=ELLIPSE('',#164,13.301593354279,11.5);
#38=ELLIPSE('',#166,13.301593354279,11.5);
#39=ELLIPSE('',#167,13.3015933542796,11.5);
#40=ELLIPSE('',#169,11.5,8.13172798364497);
#41=ELLIPSE('',#170,11.5,8.13172798364535);
#42=LINE('',#221,#55);
#43=LINE('',#223,#56);
#44=LINE('',#225,#57);
#45=LINE('',#227,#58);
#46=LINE('',#233,#59);
#47=LINE('',#235,#60);
#48=LINE('',#237,#61);
#49=LINE('',#241,#62);
#50=LINE('',#242,#63);
#51=LINE('',#254,#64);
#52=LINE('',#267,#65);
#53=LINE('',#270,#66);
#54=LINE('',#272,#67);
#55=VECTOR('',#181,10.);
#56=VECTOR('',#182,10.);
#57=VECTOR('',#183,10.);
#58=VECTOR('',#184,10.);
#59=VECTOR('',#191,10.);
#60=VECTOR('',#192,10.);
#61=VECTOR('',#193,10.);
#62=VECTOR('',#198,10.);
#63=VECTOR('',#199,10.);
#64=VECTOR('',#200,10.);
#65=VECTOR('',#203,10.);
#66=VECTOR('',#208,10.);
#67=VECTOR('',#211,10.);
#68=VERTEX_POINT('',#219);
#69=VERTEX_POINT('',#220);
#70=VERTEX_POINT('',#222);
#71=VERTEX_POINT('',#224);
#72=VERTEX_POINT('',#226);
#73=VERTEX_POINT('',#230);
#74=VERTEX_POINT('',#232);
#75=VERTEX_POINT('',#234);
#76=VERTEX_POINT('',#236);
#77=VERTEX_POINT('',#240);
#78=VERTEX_POINT('',#253);
#79=VERTEX_POINT('',#266);
#80=EDGE_CURVE('',#68,#69,#42,.T.);
#81=EDGE_CURVE('',#68,#70,#43,.T.);
#82=EDGE_CURVE('',#71,#70,#44,.T.);
#83=EDGE_CURVE('',#72,#71,#45,.T.);
#84=EDGE_CURVE('',#69,#72,#37,.T.);
#85=EDGE_CURVE('',#72,#73,#38,.T.);
#86=EDGE_CURVE('',#74,#71,#46,.T.);
#87=EDGE_CURVE('',#74,#75,#47,.T.);
#88=EDGE_CURVE('',#76,#75,#48,.T.);
#89=EDGE_CURVE('',#73,#76,#39,.T.);
#90=EDGE_CURVE('',#77,#69,#49,.T.);
#91=EDGE_CURVE('',#77,#68,#50,.T.);
#92=EDGE_CURVE('',#78,#73,#51,.T.);
#93=EDGE_CURVE('',#78,#77,#40,.T.);
#94=EDGE_CURVE('',#79,#76,#52,.T.);
#95=EDGE_CURVE('',#79,#78,#41,.T.);
#96=EDGE_CURVE('',#75,#79,#53,.T.);
#97=EDGE_CURVE('',#70,#74,#54,.T.);
#98=ORIENTED_EDGE('',*,*,#80,.F.);
#99=ORIENTED_EDGE('',*,*,#81,.T.);
#100=ORIENTED_EDGE('',*,*,#82,.F.);
#101=ORIENTED_EDGE('',*,*,#83,.F.);
#102=ORIENTED_EDGE('',*,*,#84,.F.);
#103=ORIENTED_EDGE('',*,*,#85,.F.);
#104=ORIENTED_EDGE('',*,*,#83,.T.);
#105=ORIENTED_EDGE('',*,*,#86,.F.);
#106=ORIENTED_EDGE('',*,*,#87,.T.);
#107=ORIENTED_EDGE('',*,*,#88,.F.);
#108=ORIENTED_EDGE('',*,*,#89,.F.);
#109=ORIENTED_EDGE('',*,*,#80,.T.);
#110=ORIENTED_EDGE('',*,*,#90,.F.);
#111=ORIENTED_EDGE('',*,*,#91,.T.);
#112=ORIENTED_EDGE('',*,*,#84,.T.);
#113=ORIENTED_EDGE('',*,*,#85,.T.);
#114=ORIENTED_EDGE('',*,*,#92,.F.);
#115=ORIENTED_EDGE('',*,*,#93,.T.);
#116=ORIENTED_EDGE('',*,*,#90,.T.);
#117=ORIENTED_EDGE('',*,*,#89,.T.);
#118=ORIENTED_EDGE('',*,*,#94,.F.);
#119=ORIENTED_EDGE('',*,*,#95,.T.);
#120=ORIENTED_EDGE('',*,*,#92,.T.);
#121=ORIENTED_EDGE('',*,*,#88,.T.);
#122=ORIENTED_EDGE('',*,*,#96,.T.);
#123=ORIENTED_EDGE('',*,*,#94,.T.);
#124=ORIENTED_EDGE('',*,*,#82,.T.);
#125=ORIENTED_EDGE('',*,*,#97,.T.);
#126=ORIENTED_EDGE('',*,*,#86,.T.);
#127=ORIENTED_EDGE('',*,*,#95,.F.);
#128=ORIENTED_EDGE('',*,*,#96,.F.);
#129=ORIENTED_EDGE('',*,*,#87,.F.);
#130=ORIENTED_EDGE('',*,*,#97,.F.);
#131=ORIENTED_EDGE('',*,*,#81,.F.);
#132=ORIENTED_EDGE('',*,*,#91,.F.);
#133=ORIENTED_EDGE('',*,*,#93,.F.);
#134=PLANE('',#163);
#135=PLANE('',#165);
#136=PLANE('',#168);
#137=PLANE('',#171);
#138=PLANE('',#172);
#139=PLANE('',#173);
#140=ADVANCED_FACE('',(#21),#134,.F.);
#141=ADVANCED_FACE('',(#22),#135,.F.);
#142=ADVANCED_FACE('',(#23),#136,.T.);
#143=ADVANCED_FACE('',(#24),#19,.F.);
#144=ADVANCED_FACE('',(#25),#20,.F.);
#145=ADVANCED_FACE('',(#26),#137,.T.);
#146=ADVANCED_FACE('',(#27),#138,.T.);
#147=ADVANCED_FACE('',(#28),#139,.F.);
#148=CLOSED_SHELL('',(#140,#141,#142,#143,#144,#145,#146,#147));
#149=DERIVED_UNIT_ELEMENT(#151,1.);
#150=DERIVED_UNIT_ELEMENT(#282,3.);
#151=(
MASS_UNIT()
NAMED_UNIT(*)
SI_UNIT(.KILO.,.GRAM.)
);
#152=DERIVED_UNIT((#149,#150));
#153=MEASURE_REPRESENTATION_ITEM('density measure',
POSITIVE_RATIO_MEASURE(7850.),#152);
#154=PROPERTY_DEFINITION_REPRESENTATION(#159,#156);
#155=PROPERTY_DEFINITION_REPRESENTATION(#160,#157);
#156=REPRESENTATION('material name',(#158),#279);
#157=REPRESENTATION('density',(#153),#279);
#158=DESCRIPTIVE_REPRESENTATION_ITEM('Steel','Steel');
#159=PROPERTY_DEFINITION('material property','material name',#294);
#160=PROPERTY_DEFINITION('material property','density of part',#294);
#161=AXIS2_PLACEMENT_3D('placement',#216,#175,#176);
#162=AXIS2_PLACEMENT_3D('placement',#217,#177,#178);
#163=AXIS2_PLACEMENT_3D('',#218,#179,#180);
#164=AXIS2_PLACEMENT_3D('',#228,#185,#186);
#165=AXIS2_PLACEMENT_3D('',#229,#187,#188);
#166=AXIS2_PLACEMENT_3D('',#231,#189,#190);
#167=AXIS2_PLACEMENT_3D('',#238,#194,#195);
#168=AXIS2_PLACEMENT_3D('',#239,#196,#197);
#169=AXIS2_PLACEMENT_3D('',#255,#201,#202);
#170=AXIS2_PLACEMENT_3D('',#268,#204,#205);
#171=AXIS2_PLACEMENT_3D('',#269,#206,#207);
#172=AXIS2_PLACEMENT_3D('',#271,#209,#210);
#173=AXIS2_PLACEMENT_3D('',#273,#212,#213);
#174=AXIS2_PLACEMENT_3D('',#274,#214,#215);
#175=DIRECTION('axis',(0.,0.,1.));
#176=DIRECTION('refdir',(1.,0.,0.));
#177=DIRECTION('axis',(0.,0.,1.));
#178=DIRECTION('refdir',(1.,0.,0.));
#179=DIRECTION('center_axis',(-0.791372013587099,0.,-0.611334880496034));
#180=DIRECTION('ref_axis',(0.611334880496034,0.,-0.791372013587099));
#181=DIRECTION('',(-0.611334880496034,0.,0.791372013587099));
#182=DIRECTION('',(0.,1.,0.));
#183=DIRECTION('',(0.611334880496034,0.,-0.791372013587099));
#184=DIRECTION('',(0.,1.,0.));
#185=DIRECTION('center_axis',(-0.791372013587099,0.,-0.611334880496034));
#186=DIRECTION('ref_axis',(0.611334880496034,1.09122571906538E-29,-0.791372013587099));
#187=DIRECTION('center_axis',(0.791372013587099,0.,-0.611334880496034));
#188=DIRECTION('ref_axis',(0.611334880496034,0.,0.791372013587099));
#189=DIRECTION('center_axis',(0.791372013587099,0.,-0.611334880496034));
#190=DIRECTION('ref_axis',(0.611334880496034,1.09122571906538E-29,0.791372013587099));
#191=DIRECTION('',(0.611334880496034,0.,0.791372013587099));
#192=DIRECTION('',(0.,-1.,0.));
#193=DIRECTION('',(-0.611334880496034,0.,-0.791372013587099));
#194=DIRECTION('center_axis',(0.791372013587099,0.,-0.611334880496034));
#195=DIRECTION('ref_axis',(-0.611334880496034,0.,-0.791372013587099));
#196=DIRECTION('center_axis',(0.,-1.,0.));
#197=DIRECTION('ref_axis',(1.,0.,0.));
#198=DIRECTION('',(0.,0.,1.));
#199=DIRECTION('',(1.,0.,0.));
#200=DIRECTION('',(0.,0.,1.));
#201=DIRECTION('center_axis',(0.,0.,1.));
#202=DIRECTION('ref_axis',(1.78498847993095E-29,-1.,0.));
#203=DIRECTION('',(0.,0.,1.));
#204=DIRECTION('center_axis',(0.,0.,1.));
#205=DIRECTION('ref_axis',(0.,1.,0.));
#206=DIRECTION('center_axis',(0.,-1.,0.));
#207=DIRECTION('ref_axis',(1.,0.,0.));
#208=DIRECTION('',(1.,0.,0.));
#209=DIRECTION('center_axis',(0.,1.,0.));
#210=DIRECTION('ref_axis',(-1.,0.,0.));
#211=DIRECTION('',(-1.,0.,0.));
#212=DIRECTION('center_axis',(0.,0.,1.));
#213=DIRECTION('ref_axis',(-1.,0.,0.));
#214=DIRECTION('',(0.,0.,1.));
#215=DIRECTION('',(1.,0.,0.));
#216=CARTESIAN_POINT('',(0.,0.,0.));
#217=CARTESIAN_POINT('',(0.,0.,0.));
#218=CARTESIAN_POINT('Origin',(25.2691524228386,44.5863225289208,28.8671701060824));
#219=CARTESIAN_POINT('',(40.7191524228386,-21.5175440346919,8.86717010608243));
#220=CARTESIAN_POINT('',(40.4316365792292,-21.5175440346919,9.23935890039874));
#221=CARTESIAN_POINT('',(32.9404257264039,-21.5175440346919,18.9367192276807));
#222=CARTESIAN_POINT('',(40.7191524228386,44.5863225289208,8.86717010608243));
#223=CARTESIAN_POINT('',(40.7191524228386,-21.5175440346919,8.86717010608243));
#224=CARTESIAN_POINT('',(25.2691524228386,44.5863225289208,28.8671701060824));
#225=CARTESIAN_POINT('',(32.9941524228386,44.5863225289208,18.8671701060824));
#226=CARTESIAN_POINT('',(25.2691524228386,-26.7580461386545,28.8671701060824));
#227=CARTESIAN_POINT('',(25.2691524228386,25.3147418966906,28.8671701060824));
#228=CARTESIAN_POINT('Origin',(32.3081475451951,-21.,19.7552023101516));
#229=CARTESIAN_POINT('Origin',(9.81915242283859,44.5863225289208,8.86717010608243));
#230=CARTESIAN_POINT('',(25.171572875254,-26.5125859594842,28.7408535396299));
#231=CARTESIAN_POINT('Origin',(32.3081475451951,-21.,37.9791379020132));
#232=CARTESIAN_POINT('',(9.81915242283859,44.5863225289208,8.86717010608243));
#233=CARTESIAN_POINT('',(15.5932861157551,44.5863225289208,16.3417768283044));
#234=CARTESIAN_POINT('',(9.81915242283859,-21.5175440346919,8.86717010608243));
#235=CARTESIAN_POINT('',(9.81915242283859,44.5863225289208,8.86717010608243));
#236=CARTESIAN_POINT('',(9.91150917127812,-21.5175440346919,8.98672576749283));
#237=CARTESIAN_POINT('',(9.81915242283859,-21.5175440346919,8.86717010608243));
#238=CARTESIAN_POINT('Origin',(18.0349982053126,-21.,19.5025691772462));
#239=CARTESIAN_POINT('Origin',(40.4316365792292,-21.5175440346919,8.86717010608243));
#240=CARTESIAN_POINT('',(40.4316365792292,-21.5175440346919,8.86717010608243));
#241=CARTESIAN_POINT('',(40.4316365792292,-21.5175440346919,8.86717010608243));
#242=CARTESIAN_POINT('',(40.4316365792292,-21.5175440346919,8.86717010608243));
#243=CARTESIAN_POINT('Ctrl Pts',(25.171572875254,-26.5125859594842,8.86717010608243));
#244=CARTESIAN_POINT('Ctrl Pts',(28.1296973706089,-34.1717413900723,8.86717010608243));
#245=CARTESIAN_POINT('Ctrl Pts',(34.1418065836527,-32.2038113631641,8.86717010608243));
#246=CARTESIAN_POINT('Ctrl Pts',(40.1539157966965,-30.235881336256,8.86717010608243));
#247=CARTESIAN_POINT('Ctrl Pts',(40.4316365792292,-21.5175440346919,8.86717010608243));
#248=CARTESIAN_POINT('Ctrl Pts',(25.171572875254,-26.5125859594842,28.8671701060824));
#249=CARTESIAN_POINT('Ctrl Pts',(28.1296973706089,-34.1717413900723,28.8671701060824));
#250=CARTESIAN_POINT('Ctrl Pts',(34.1418065836527,-32.2038113631641,28.8671701060824));
#251=CARTESIAN_POINT('Ctrl Pts',(40.1539157966965,-30.235881336256,28.8671701060824));
#252=CARTESIAN_POINT('Ctrl Pts',(40.4316365792292,-21.5175440346919,28.8671701060824));
#253=CARTESIAN_POINT('',(25.171572875254,-26.5125859594842,8.86717010608243));
#254=CARTESIAN_POINT('',(25.171572875254,-26.5125859594842,8.86717010608243));
#255=CARTESIAN_POINT('Origin',(32.3081475451951,-21.,8.86717010608243));
#256=CARTESIAN_POINT('Ctrl Pts',(9.91150917127812,-21.5175440346919,8.86717010608243));
#257=CARTESIAN_POINT('Ctrl Pts',(10.1892299538108,-30.235881336256,8.86717010608243));
#258=CARTESIAN_POINT('Ctrl Pts',(16.2013391668549,-32.2038113631641,8.86717010608243));
#259=CARTESIAN_POINT('Ctrl Pts',(22.213448379899,-34.1717413900723,8.86717010608243));
#260=CARTESIAN_POINT('Ctrl Pts',(25.171572875254,-26.5125859594842,8.86717010608243));
#261=CARTESIAN_POINT('Ctrl Pts',(9.91150917127812,-21.5175440346919,28.7408535396299));
#262=CARTESIAN_POINT('Ctrl Pts',(10.1892299538108,-30.235881336256,28.7408535396299));
#263=CARTESIAN_POINT('Ctrl Pts',(16.2013391668549,-32.2038113631641,28.7408535396299));
#264=CARTESIAN_POINT('Ctrl Pts',(22.213448379899,-34.1717413900723,28.7408535396299));
#265=CARTESIAN_POINT('Ctrl Pts',(25.171572875254,-26.5125859594842,28.7408535396299));
#266=CARTESIAN_POINT('',(9.91150917127812,-21.5175440346919,8.86717010608243));
#267=CARTESIAN_POINT('',(9.91150917127812,-21.5175440346919,8.86717010608243));
#268=CARTESIAN_POINT('Origin',(18.0349982053126,-21.,8.86717010608243));
#269=CARTESIAN_POINT('Origin',(9.81915242283859,-21.5175440346919,8.86717010608243));
#270=CARTESIAN_POINT('',(9.81915242283859,-21.5175440346919,8.86717010608243));
#271=CARTESIAN_POINT('Origin',(40.7191524228386,44.5863225289208,8.86717010608243));
#272=CARTESIAN_POINT('',(40.7191524228386,44.5863225289208,8.86717010608243));
#273=CARTESIAN_POINT('Origin',(25.2691524228386,6.04316126446037,8.86717010608243));
#274=CARTESIAN_POINT('',(0.,0.,0.));
#275=UNCERTAINTY_MEASURE_WITH_UNIT(LENGTH_MEASURE(0.01),#281,
'DISTANCE_ACCURACY_VALUE',
'Maximum model space distance between geometric entities at asserted c
onnectivities');
#276=UNCERTAINTY_MEASURE_WITH_UNIT(LENGTH_MEASURE(0.01),#281,
'DISTANCE_ACCURACY_VALUE',
'Maximum model space distance between geometric entities at asserted c
onnectivities');
#277=UNCERTAINTY_MEASURE_WITH_UNIT(LENGTH_MEASURE(0.01),#281,
'DISTANCE_ACCURACY_VALUE',
'Maximum model space distance between geometric entities at asserted c
onnectivities');
#278=(
GEOMETRIC_REPRESENTATION_CONTEXT(3)
GLOBAL_UNCERTAINTY_ASSIGNED_CONTEXT((#275))
GLOBAL_UNIT_ASSIGNED_CONTEXT((#281,#283,#284))
REPRESENTATION_CONTEXT('','3D')
);
#279=(
GEOMETRIC_REPRESENTATION_CONTEXT(3)
GLOBAL_UNCERTAINTY_ASSIGNED_CONTEXT((#276))
GLOBAL_UNIT_ASSIGNED_CONTEXT((#281,#283,#284))
REPRESENTATION_CONTEXT('','3D')
);
#280=(
GEOMETRIC_REPRESENTATION_CONTEXT(3)
GLOBAL_UNCERTAINTY_ASSIGNED_CONTEXT((#277))
GLOBAL_UNIT_ASSIGNED_CONTEXT((#281,#283,#284))
REPRESENTATION_CONTEXT('','3D')
);
#281=(
LENGTH_UNIT()
NAMED_UNIT(*)
SI_UNIT(.MILLI.,.METRE.)
);
#282=(
LENGTH_UNIT()
NAMED_UNIT(*)
SI_UNIT($,.METRE.)
);
#283=(
NAMED_UNIT(*)
PLANE_ANGLE_UNIT()
SI_UNIT($,.RADIAN.)
);
#284=(
NAMED_UNIT(*)
SI_UNIT($,.STERADIAN.)
SOLID_ANGLE_UNIT()
);
#285=SHAPE_DEFINITION_REPRESENTATION(#287,#290);
#286=SHAPE_DEFINITION_REPRESENTATION(#288,#291);
#287=PRODUCT_DEFINITION_SHAPE('',$,#293);
#288=PRODUCT_DEFINITION_SHAPE('',$,#294);
#289=PRODUCT_DEFINITION_SHAPE($,$,#14);
#290=SHAPE_REPRESENTATION('',(#161,#174),#278);
#291=SHAPE_REPRESENTATION('',(#162),#279);
#292=PRODUCT_DEFINITION_CONTEXT('part definition',#300,'design');
#293=PRODUCT_DEFINITION('Assembily','Assembily v6',#295,#292);
#294=PRODUCT_DEFINITION('rain lid','rain lid',#296,#292);
#295=PRODUCT_DEFINITION_FORMATION('',$,#302);
#296=PRODUCT_DEFINITION_FORMATION('',$,#303);
#297=PRODUCT_RELATED_PRODUCT_CATEGORY('Assembily v6','Assembily v6',(#302));
#298=PRODUCT_RELATED_PRODUCT_CATEGORY('rain lid','rain lid',(#303));
#299=APPLICATION_PROTOCOL_DEFINITION('international standard',
'automotive_design',2009,#300);
#300=APPLICATION_CONTEXT(
'Core Data for Automotive Mechanical Design Process');
#301=PRODUCT_CONTEXT('part definition',#300,'mechanical');
#302=PRODUCT('Assembily','Assembily v6',$,(#301));
#303=PRODUCT('rain lid','rain lid',$,(#301));
#304=PRESENTATION_STYLE_ASSIGNMENT((#305));
#305=SURFACE_STYLE_USAGE(.BOTH.,#306);
#306=SURFACE_SIDE_STYLE('',(#307));
#307=SURFACE_STYLE_FILL_AREA(#308);
#308=FILL_AREA_STYLE('Steel - Satin',(#309));
#309=FILL_AREA_STYLE_COLOUR('Steel - Satin',#310);
#310=COLOUR_RGB('Steel - Satin',0.627450980392157,0.627450980392157,0.627450980392157);
ENDSEC;
END-ISO-10303-21;
