ISO-10303-21;
HEADER;
/* Generated by software containing ST-Developer
 * from STEP Tools, Inc. (www.steptools.com) 
 */

FILE_DESCRIPTION(
/* description */ (''),
/* implementation_level */ '2;1');

FILE_NAME(
/* name */ '/Users/karl/Desktop/stack-light v3.step',
/* time_stamp */ '2021-02-27T11:11:35-08:00',
/* author */ (''),
/* organization */ (''),
/* preprocessor_version */ 'ST-DEVELOPER v18.1',
/* originating_system */ 'Autodesk Translation Framework v9.7.0.1280',
/* authorisation */ '');

FILE_SCHEMA (('AUTOMOTIVE_DESIGN { 1 0 10303 214 3 1 1 }'));
ENDSEC;

DATA;
#10=MECHANICAL_DESIGN_GEOMETRIC_PRESENTATION_REPRESENTATION('',(#13),#506);
#11=SHAPE_REPRESENTATION_RELATIONSHIP('SRR','None',#513,#12);
#12=ADVANCED_BREP_SHAPE_REPRESENTATION('',(#14),#505);
#13=STYLED_ITEM('',(#522),#14);
#14=MANIFOLD_SOLID_BREP('Body1',#282);
#15=FACE_BOUND('',#57,.T.);
#16=FACE_BOUND('',#61,.T.);
#17=FACE_BOUND('',#64,.T.);
#18=FACE_BOUND('',#67,.T.);
#19=FACE_BOUND('',#70,.T.);
#20=FACE_BOUND('',#77,.T.);
#21=FACE_BOUND('',#78,.T.);
#22=FACE_BOUND('',#79,.T.);
#23=FACE_BOUND('',#80,.T.);
#24=FACE_BOUND('',#81,.T.);
#25=FACE_BOUND('',#83,.T.);
#26=FACE_BOUND('',#84,.T.);
#27=FACE_BOUND('',#85,.T.);
#28=FACE_BOUND('',#86,.T.);
#29=FACE_BOUND('',#87,.T.);
#30=PLANE('',#299);
#31=PLANE('',#306);
#32=PLANE('',#311);
#33=PLANE('',#316);
#34=PLANE('',#321);
#35=PLANE('',#334);
#36=PLANE('',#335);
#37=FACE_OUTER_BOUND('',#55,.T.);
#38=FACE_OUTER_BOUND('',#56,.T.);
#39=FACE_OUTER_BOUND('',#58,.T.);
#40=FACE_OUTER_BOUND('',#59,.T.);
#41=FACE_OUTER_BOUND('',#60,.T.);
#42=FACE_OUTER_BOUND('',#62,.T.);
#43=FACE_OUTER_BOUND('',#63,.T.);
#44=FACE_OUTER_BOUND('',#65,.T.);
#45=FACE_OUTER_BOUND('',#66,.T.);
#46=FACE_OUTER_BOUND('',#68,.T.);
#47=FACE_OUTER_BOUND('',#69,.T.);
#48=FACE_OUTER_BOUND('',#71,.T.);
#49=FACE_OUTER_BOUND('',#72,.T.);
#50=FACE_OUTER_BOUND('',#73,.T.);
#51=FACE_OUTER_BOUND('',#74,.T.);
#52=FACE_OUTER_BOUND('',#75,.T.);
#53=FACE_OUTER_BOUND('',#76,.T.);
#54=FACE_OUTER_BOUND('',#82,.T.);
#55=EDGE_LOOP('',(#187,#188,#189,#190));
#56=EDGE_LOOP('',(#191));
#57=EDGE_LOOP('',(#192));
#58=EDGE_LOOP('',(#193,#194,#195,#196));
#59=EDGE_LOOP('',(#197,#198,#199,#200));
#60=EDGE_LOOP('',(#201));
#61=EDGE_LOOP('',(#202));
#62=EDGE_LOOP('',(#203,#204,#205,#206));
#63=EDGE_LOOP('',(#207));
#64=EDGE_LOOP('',(#208));
#65=EDGE_LOOP('',(#209,#210,#211,#212));
#66=EDGE_LOOP('',(#213));
#67=EDGE_LOOP('',(#214));
#68=EDGE_LOOP('',(#215,#216,#217,#218));
#69=EDGE_LOOP('',(#219));
#70=EDGE_LOOP('',(#220));
#71=EDGE_LOOP('',(#221,#222,#223,#224));
#72=EDGE_LOOP('',(#225,#226,#227,#228));
#73=EDGE_LOOP('',(#229,#230,#231,#232));
#74=EDGE_LOOP('',(#233,#234,#235,#236));
#75=EDGE_LOOP('',(#237,#238,#239,#240));
#76=EDGE_LOOP('',(#241));
#77=EDGE_LOOP('',(#242));
#78=EDGE_LOOP('',(#243));
#79=EDGE_LOOP('',(#244));
#80=EDGE_LOOP('',(#245));
#81=EDGE_LOOP('',(#246));
#82=EDGE_LOOP('',(#247));
#83=EDGE_LOOP('',(#248));
#84=EDGE_LOOP('',(#249));
#85=EDGE_LOOP('',(#250));
#86=EDGE_LOOP('',(#251));
#87=EDGE_LOOP('',(#252));
#88=LINE('',#434,#99);
#89=LINE('',#441,#100);
#90=LINE('',#447,#101);
#91=LINE('',#456,#102);
#92=LINE('',#465,#103);
#93=LINE('',#474,#104);
#94=LINE('',#482,#105);
#95=LINE('',#486,#106);
#96=LINE('',#490,#107);
#97=LINE('',#494,#108);
#98=LINE('',#499,#109);
#99=VECTOR('',#342,12.5);
#100=VECTOR('',#351,10.25);
#101=VECTOR('',#358,5.275);
#102=VECTOR('',#369,5.275);
#103=VECTOR('',#380,5.275);
#104=VECTOR('',#391,5.275);
#105=VECTOR('',#402,2.55);
#106=VECTOR('',#407,2.55);
#107=VECTOR('',#412,2.55);
#108=VECTOR('',#417,2.55);
#109=VECTOR('',#422,35.125);
#110=CIRCLE('',#297,12.5);
#111=CIRCLE('',#298,12.5);
#112=CIRCLE('',#300,10.25);
#113=CIRCLE('',#302,10.25);
#114=CIRCLE('',#304,5.275);
#115=CIRCLE('',#305,5.275);
#116=CIRCLE('',#307,2.55);
#117=CIRCLE('',#309,5.275);
#118=CIRCLE('',#310,5.275);
#119=CIRCLE('',#312,2.55);
#120=CIRCLE('',#314,5.275);
#121=CIRCLE('',#315,5.275);
#122=CIRCLE('',#317,2.55);
#123=CIRCLE('',#319,5.275);
#124=CIRCLE('',#320,5.275);
#125=CIRCLE('',#322,2.55);
#126=CIRCLE('',#324,2.55);
#127=CIRCLE('',#326,2.55);
#128=CIRCLE('',#328,2.55);
#129=CIRCLE('',#330,2.55);
#130=CIRCLE('',#332,35.125);
#131=CIRCLE('',#333,35.125);
#132=VERTEX_POINT('',#431);
#133=VERTEX_POINT('',#433);
#134=VERTEX_POINT('',#437);
#135=VERTEX_POINT('',#440);
#136=VERTEX_POINT('',#444);
#137=VERTEX_POINT('',#446);
#138=VERTEX_POINT('',#450);
#139=VERTEX_POINT('',#453);
#140=VERTEX_POINT('',#455);
#141=VERTEX_POINT('',#459);
#142=VERTEX_POINT('',#462);
#143=VERTEX_POINT('',#464);
#144=VERTEX_POINT('',#468);
#145=VERTEX_POINT('',#471);
#146=VERTEX_POINT('',#473);
#147=VERTEX_POINT('',#477);
#148=VERTEX_POINT('',#480);
#149=VERTEX_POINT('',#484);
#150=VERTEX_POINT('',#488);
#151=VERTEX_POINT('',#492);
#152=VERTEX_POINT('',#496);
#153=VERTEX_POINT('',#498);
#154=EDGE_CURVE('',#132,#132,#110,.T.);
#155=EDGE_CURVE('',#132,#133,#88,.T.);
#156=EDGE_CURVE('',#133,#133,#111,.T.);
#157=EDGE_CURVE('',#134,#134,#112,.T.);
#158=EDGE_CURVE('',#134,#135,#89,.T.);
#159=EDGE_CURVE('',#135,#135,#113,.T.);
#160=EDGE_CURVE('',#136,#136,#114,.T.);
#161=EDGE_CURVE('',#136,#137,#90,.T.);
#162=EDGE_CURVE('',#137,#137,#115,.T.);
#163=EDGE_CURVE('',#138,#138,#116,.T.);
#164=EDGE_CURVE('',#139,#139,#117,.T.);
#165=EDGE_CURVE('',#139,#140,#91,.T.);
#166=EDGE_CURVE('',#140,#140,#118,.T.);
#167=EDGE_CURVE('',#141,#141,#119,.T.);
#168=EDGE_CURVE('',#142,#142,#120,.T.);
#169=EDGE_CURVE('',#142,#143,#92,.T.);
#170=EDGE_CURVE('',#143,#143,#121,.T.);
#171=EDGE_CURVE('',#144,#144,#122,.T.);
#172=EDGE_CURVE('',#145,#145,#123,.T.);
#173=EDGE_CURVE('',#145,#146,#93,.T.);
#174=EDGE_CURVE('',#146,#146,#124,.T.);
#175=EDGE_CURVE('',#147,#147,#125,.T.);
#176=EDGE_CURVE('',#148,#148,#126,.T.);
#177=EDGE_CURVE('',#148,#138,#94,.T.);
#178=EDGE_CURVE('',#149,#149,#127,.T.);
#179=EDGE_CURVE('',#149,#144,#95,.T.);
#180=EDGE_CURVE('',#150,#150,#128,.T.);
#181=EDGE_CURVE('',#150,#147,#96,.T.);
#182=EDGE_CURVE('',#151,#151,#129,.T.);
#183=EDGE_CURVE('',#151,#141,#97,.T.);
#184=EDGE_CURVE('',#152,#152,#130,.T.);
#185=EDGE_CURVE('',#152,#153,#98,.T.);
#186=EDGE_CURVE('',#153,#153,#131,.T.);
#187=ORIENTED_EDGE('',*,*,#154,.F.);
#188=ORIENTED_EDGE('',*,*,#155,.T.);
#189=ORIENTED_EDGE('',*,*,#156,.F.);
#190=ORIENTED_EDGE('',*,*,#155,.F.);
#191=ORIENTED_EDGE('',*,*,#154,.T.);
#192=ORIENTED_EDGE('',*,*,#157,.T.);
#193=ORIENTED_EDGE('',*,*,#157,.F.);
#194=ORIENTED_EDGE('',*,*,#158,.T.);
#195=ORIENTED_EDGE('',*,*,#159,.F.);
#196=ORIENTED_EDGE('',*,*,#158,.F.);
#197=ORIENTED_EDGE('',*,*,#160,.F.);
#198=ORIENTED_EDGE('',*,*,#161,.T.);
#199=ORIENTED_EDGE('',*,*,#162,.T.);
#200=ORIENTED_EDGE('',*,*,#161,.F.);
#201=ORIENTED_EDGE('',*,*,#162,.F.);
#202=ORIENTED_EDGE('',*,*,#163,.F.);
#203=ORIENTED_EDGE('',*,*,#164,.F.);
#204=ORIENTED_EDGE('',*,*,#165,.T.);
#205=ORIENTED_EDGE('',*,*,#166,.T.);
#206=ORIENTED_EDGE('',*,*,#165,.F.);
#207=ORIENTED_EDGE('',*,*,#166,.F.);
#208=ORIENTED_EDGE('',*,*,#167,.F.);
#209=ORIENTED_EDGE('',*,*,#168,.F.);
#210=ORIENTED_EDGE('',*,*,#169,.T.);
#211=ORIENTED_EDGE('',*,*,#170,.T.);
#212=ORIENTED_EDGE('',*,*,#169,.F.);
#213=ORIENTED_EDGE('',*,*,#170,.F.);
#214=ORIENTED_EDGE('',*,*,#171,.F.);
#215=ORIENTED_EDGE('',*,*,#172,.F.);
#216=ORIENTED_EDGE('',*,*,#173,.T.);
#217=ORIENTED_EDGE('',*,*,#174,.T.);
#218=ORIENTED_EDGE('',*,*,#173,.F.);
#219=ORIENTED_EDGE('',*,*,#174,.F.);
#220=ORIENTED_EDGE('',*,*,#175,.F.);
#221=ORIENTED_EDGE('',*,*,#176,.F.);
#222=ORIENTED_EDGE('',*,*,#177,.T.);
#223=ORIENTED_EDGE('',*,*,#163,.T.);
#224=ORIENTED_EDGE('',*,*,#177,.F.);
#225=ORIENTED_EDGE('',*,*,#178,.F.);
#226=ORIENTED_EDGE('',*,*,#179,.T.);
#227=ORIENTED_EDGE('',*,*,#171,.T.);
#228=ORIENTED_EDGE('',*,*,#179,.F.);
#229=ORIENTED_EDGE('',*,*,#180,.F.);
#230=ORIENTED_EDGE('',*,*,#181,.T.);
#231=ORIENTED_EDGE('',*,*,#175,.T.);
#232=ORIENTED_EDGE('',*,*,#181,.F.);
#233=ORIENTED_EDGE('',*,*,#182,.F.);
#234=ORIENTED_EDGE('',*,*,#183,.T.);
#235=ORIENTED_EDGE('',*,*,#167,.T.);
#236=ORIENTED_EDGE('',*,*,#183,.F.);
#237=ORIENTED_EDGE('',*,*,#184,.F.);
#238=ORIENTED_EDGE('',*,*,#185,.T.);
#239=ORIENTED_EDGE('',*,*,#186,.F.);
#240=ORIENTED_EDGE('',*,*,#185,.F.);
#241=ORIENTED_EDGE('',*,*,#186,.T.);
#242=ORIENTED_EDGE('',*,*,#156,.T.);
#243=ORIENTED_EDGE('',*,*,#160,.T.);
#244=ORIENTED_EDGE('',*,*,#164,.T.);
#245=ORIENTED_EDGE('',*,*,#168,.T.);
#246=ORIENTED_EDGE('',*,*,#172,.T.);
#247=ORIENTED_EDGE('',*,*,#184,.T.);
#248=ORIENTED_EDGE('',*,*,#159,.T.);
#249=ORIENTED_EDGE('',*,*,#182,.T.);
#250=ORIENTED_EDGE('',*,*,#180,.T.);
#251=ORIENTED_EDGE('',*,*,#178,.T.);
#252=ORIENTED_EDGE('',*,*,#176,.T.);
#253=CYLINDRICAL_SURFACE('',#296,12.5);
#254=CYLINDRICAL_SURFACE('',#301,10.25);
#255=CYLINDRICAL_SURFACE('',#303,5.275);
#256=CYLINDRICAL_SURFACE('',#308,5.275);
#257=CYLINDRICAL_SURFACE('',#313,5.275);
#258=CYLINDRICAL_SURFACE('',#318,5.275);
#259=CYLINDRICAL_SURFACE('',#323,2.55);
#260=CYLINDRICAL_SURFACE('',#325,2.55);
#261=CYLINDRICAL_SURFACE('',#327,2.55);
#262=CYLINDRICAL_SURFACE('',#329,2.55);
#263=CYLINDRICAL_SURFACE('',#331,35.125);
#264=ADVANCED_FACE('',(#37),#253,.T.);
#265=ADVANCED_FACE('',(#38,#15),#30,.T.);
#266=ADVANCED_FACE('',(#39),#254,.F.);
#267=ADVANCED_FACE('',(#40),#255,.F.);
#268=ADVANCED_FACE('',(#41,#16),#31,.T.);
#269=ADVANCED_FACE('',(#42),#256,.F.);
#270=ADVANCED_FACE('',(#43,#17),#32,.T.);
#271=ADVANCED_FACE('',(#44),#257,.F.);
#272=ADVANCED_FACE('',(#45,#18),#33,.T.);
#273=ADVANCED_FACE('',(#46),#258,.F.);
#274=ADVANCED_FACE('',(#47,#19),#34,.T.);
#275=ADVANCED_FACE('',(#48),#259,.F.);
#276=ADVANCED_FACE('',(#49),#260,.F.);
#277=ADVANCED_FACE('',(#50),#261,.F.);
#278=ADVANCED_FACE('',(#51),#262,.F.);
#279=ADVANCED_FACE('',(#52),#263,.T.);
#280=ADVANCED_FACE('',(#53,#20,#21,#22,#23,#24),#35,.T.);
#281=ADVANCED_FACE('',(#54,#25,#26,#27,#28,#29),#36,.F.);
#282=CLOSED_SHELL('',(#264,#265,#266,#267,#268,#269,#270,#271,#272,#273,
#274,#275,#276,#277,#278,#279,#280,#281));
#283=DERIVED_UNIT_ELEMENT(#285,1.);
#284=DERIVED_UNIT_ELEMENT(#508,-3.);
#285=(
MASS_UNIT()
NAMED_UNIT(*)
SI_UNIT(.KILO.,.GRAM.)
);
#286=DERIVED_UNIT((#283,#284));
#287=MEASURE_REPRESENTATION_ITEM('density measure',
POSITIVE_RATIO_MEASURE(7850.),#286);
#288=PROPERTY_DEFINITION_REPRESENTATION(#293,#290);
#289=PROPERTY_DEFINITION_REPRESENTATION(#294,#291);
#290=REPRESENTATION('material name',(#292),#505);
#291=REPRESENTATION('density',(#287),#505);
#292=DESCRIPTIVE_REPRESENTATION_ITEM('Steel','Steel');
#293=PROPERTY_DEFINITION('material property','material name',#515);
#294=PROPERTY_DEFINITION('material property','density of part',#515);
#295=AXIS2_PLACEMENT_3D('placement',#429,#336,#337);
#296=AXIS2_PLACEMENT_3D('',#430,#338,#339);
#297=AXIS2_PLACEMENT_3D('',#432,#340,#341);
#298=AXIS2_PLACEMENT_3D('',#435,#343,#344);
#299=AXIS2_PLACEMENT_3D('',#436,#345,#346);
#300=AXIS2_PLACEMENT_3D('',#438,#347,#348);
#301=AXIS2_PLACEMENT_3D('',#439,#349,#350);
#302=AXIS2_PLACEMENT_3D('',#442,#352,#353);
#303=AXIS2_PLACEMENT_3D('',#443,#354,#355);
#304=AXIS2_PLACEMENT_3D('',#445,#356,#357);
#305=AXIS2_PLACEMENT_3D('',#448,#359,#360);
#306=AXIS2_PLACEMENT_3D('',#449,#361,#362);
#307=AXIS2_PLACEMENT_3D('',#451,#363,#364);
#308=AXIS2_PLACEMENT_3D('',#452,#365,#366);
#309=AXIS2_PLACEMENT_3D('',#454,#367,#368);
#310=AXIS2_PLACEMENT_3D('',#457,#370,#371);
#311=AXIS2_PLACEMENT_3D('',#458,#372,#373);
#312=AXIS2_PLACEMENT_3D('',#460,#374,#375);
#313=AXIS2_PLACEMENT_3D('',#461,#376,#377);
#314=AXIS2_PLACEMENT_3D('',#463,#378,#379);
#315=AXIS2_PLACEMENT_3D('',#466,#381,#382);
#316=AXIS2_PLACEMENT_3D('',#467,#383,#384);
#317=AXIS2_PLACEMENT_3D('',#469,#385,#386);
#318=AXIS2_PLACEMENT_3D('',#470,#387,#388);
#319=AXIS2_PLACEMENT_3D('',#472,#389,#390);
#320=AXIS2_PLACEMENT_3D('',#475,#392,#393);
#321=AXIS2_PLACEMENT_3D('',#476,#394,#395);
#322=AXIS2_PLACEMENT_3D('',#478,#396,#397);
#323=AXIS2_PLACEMENT_3D('',#479,#398,#399);
#324=AXIS2_PLACEMENT_3D('',#481,#400,#401);
#325=AXIS2_PLACEMENT_3D('',#483,#403,#404);
#326=AXIS2_PLACEMENT_3D('',#485,#405,#406);
#327=AXIS2_PLACEMENT_3D('',#487,#408,#409);
#328=AXIS2_PLACEMENT_3D('',#489,#410,#411);
#329=AXIS2_PLACEMENT_3D('',#491,#413,#414);
#330=AXIS2_PLACEMENT_3D('',#493,#415,#416);
#331=AXIS2_PLACEMENT_3D('',#495,#418,#419);
#332=AXIS2_PLACEMENT_3D('',#497,#420,#421);
#333=AXIS2_PLACEMENT_3D('',#500,#423,#424);
#334=AXIS2_PLACEMENT_3D('',#501,#425,#426);
#335=AXIS2_PLACEMENT_3D('',#502,#427,#428);
#336=DIRECTION('axis',(0.,0.,1.));
#337=DIRECTION('refdir',(1.,0.,0.));
#338=DIRECTION('center_axis',(0.,0.,1.));
#339=DIRECTION('ref_axis',(1.,0.,0.));
#340=DIRECTION('center_axis',(0.,0.,1.));
#341=DIRECTION('ref_axis',(1.,0.,0.));
#342=DIRECTION('',(0.,0.,-1.));
#343=DIRECTION('center_axis',(0.,0.,-1.));
#344=DIRECTION('ref_axis',(1.,0.,0.));
#345=DIRECTION('center_axis',(0.,0.,1.));
#346=DIRECTION('ref_axis',(1.,0.,0.));
#347=DIRECTION('center_axis',(0.,0.,-1.));
#348=DIRECTION('ref_axis',(1.,0.,0.));
#349=DIRECTION('center_axis',(0.,0.,-1.));
#350=DIRECTION('ref_axis',(1.,0.,0.));
#351=DIRECTION('',(0.,0.,-1.));
#352=DIRECTION('center_axis',(0.,0.,1.));
#353=DIRECTION('ref_axis',(1.,0.,0.));
#354=DIRECTION('center_axis',(0.,0.,-1.));
#355=DIRECTION('ref_axis',(1.,0.,0.));
#356=DIRECTION('center_axis',(0.,0.,-1.));
#357=DIRECTION('ref_axis',(1.,0.,0.));
#358=DIRECTION('',(0.,0.,-1.));
#359=DIRECTION('center_axis',(0.,0.,-1.));
#360=DIRECTION('ref_axis',(1.,0.,0.));
#361=DIRECTION('center_axis',(0.,0.,1.));
#362=DIRECTION('ref_axis',(1.,0.,0.));
#363=DIRECTION('center_axis',(0.,0.,1.));
#364=DIRECTION('ref_axis',(1.,0.,0.));
#365=DIRECTION('center_axis',(0.,0.,-1.));
#366=DIRECTION('ref_axis',(1.,0.,0.));
#367=DIRECTION('center_axis',(0.,0.,-1.));
#368=DIRECTION('ref_axis',(1.,0.,0.));
#369=DIRECTION('',(0.,0.,-1.));
#370=DIRECTION('center_axis',(0.,0.,-1.));
#371=DIRECTION('ref_axis',(1.,0.,0.));
#372=DIRECTION('center_axis',(0.,0.,1.));
#373=DIRECTION('ref_axis',(1.,0.,0.));
#374=DIRECTION('center_axis',(0.,0.,1.));
#375=DIRECTION('ref_axis',(1.,0.,0.));
#376=DIRECTION('center_axis',(0.,0.,-1.));
#377=DIRECTION('ref_axis',(1.,0.,0.));
#378=DIRECTION('center_axis',(0.,0.,-1.));
#379=DIRECTION('ref_axis',(1.,0.,0.));
#380=DIRECTION('',(0.,0.,-1.));
#381=DIRECTION('center_axis',(0.,0.,-1.));
#382=DIRECTION('ref_axis',(1.,0.,0.));
#383=DIRECTION('center_axis',(0.,0.,1.));
#384=DIRECTION('ref_axis',(1.,0.,0.));
#385=DIRECTION('center_axis',(0.,0.,1.));
#386=DIRECTION('ref_axis',(1.,0.,0.));
#387=DIRECTION('center_axis',(0.,0.,-1.));
#388=DIRECTION('ref_axis',(1.,0.,0.));
#389=DIRECTION('center_axis',(0.,0.,-1.));
#390=DIRECTION('ref_axis',(1.,0.,0.));
#391=DIRECTION('',(0.,0.,-1.));
#392=DIRECTION('center_axis',(0.,0.,-1.));
#393=DIRECTION('ref_axis',(1.,0.,0.));
#394=DIRECTION('center_axis',(0.,0.,1.));
#395=DIRECTION('ref_axis',(1.,0.,0.));
#396=DIRECTION('center_axis',(0.,0.,1.));
#397=DIRECTION('ref_axis',(1.,0.,0.));
#398=DIRECTION('center_axis',(0.,0.,-1.));
#399=DIRECTION('ref_axis',(1.,0.,0.));
#400=DIRECTION('center_axis',(0.,0.,1.));
#401=DIRECTION('ref_axis',(1.,0.,0.));
#402=DIRECTION('',(0.,0.,1.));
#403=DIRECTION('center_axis',(0.,0.,-1.));
#404=DIRECTION('ref_axis',(1.,0.,0.));
#405=DIRECTION('center_axis',(0.,0.,1.));
#406=DIRECTION('ref_axis',(1.,0.,0.));
#407=DIRECTION('',(0.,0.,1.));
#408=DIRECTION('center_axis',(0.,0.,-1.));
#409=DIRECTION('ref_axis',(1.,0.,0.));
#410=DIRECTION('center_axis',(0.,0.,1.));
#411=DIRECTION('ref_axis',(1.,0.,0.));
#412=DIRECTION('',(0.,0.,1.));
#413=DIRECTION('center_axis',(0.,0.,-1.));
#414=DIRECTION('ref_axis',(1.,0.,0.));
#415=DIRECTION('center_axis',(0.,0.,1.));
#416=DIRECTION('ref_axis',(1.,0.,0.));
#417=DIRECTION('',(0.,0.,1.));
#418=DIRECTION('center_axis',(0.,0.,-1.));
#419=DIRECTION('ref_axis',(1.,0.,0.));
#420=DIRECTION('center_axis',(0.,0.,-1.));
#421=DIRECTION('ref_axis',(1.,0.,0.));
#422=DIRECTION('',(0.,0.,1.));
#423=DIRECTION('center_axis',(0.,0.,1.));
#424=DIRECTION('ref_axis',(1.,0.,0.));
#425=DIRECTION('center_axis',(0.,0.,1.));
#426=DIRECTION('ref_axis',(1.,0.,0.));
#427=DIRECTION('center_axis',(0.,0.,1.));
#428=DIRECTION('ref_axis',(1.,0.,0.));
#429=CARTESIAN_POINT('',(0.,0.,0.));
#430=CARTESIAN_POINT('Origin',(0.,0.,0.));
#431=CARTESIAN_POINT('',(-12.5,-1.53080849893419E-15,46.));
#432=CARTESIAN_POINT('Origin',(0.,0.,46.));
#433=CARTESIAN_POINT('',(-12.5,-1.53080849893419E-15,0.));
#434=CARTESIAN_POINT('',(-12.5,-1.53080849893419E-15,0.));
#435=CARTESIAN_POINT('Origin',(0.,0.,0.));
#436=CARTESIAN_POINT('Origin',(0.,0.,46.));
#437=CARTESIAN_POINT('',(-10.25,-1.25526296912604E-15,46.));
#438=CARTESIAN_POINT('Origin',(0.,0.,46.));
#439=CARTESIAN_POINT('Origin',(0.,0.,0.));
#440=CARTESIAN_POINT('',(-10.25,-1.25526296912604E-15,-12.));
#441=CARTESIAN_POINT('',(-10.25,1.25526296912604E-15,0.));
#442=CARTESIAN_POINT('Origin',(0.,0.,-12.));
#443=CARTESIAN_POINT('Origin',(-19.2,-19.2,0.));
#444=CARTESIAN_POINT('',(-24.475,-19.2,0.));
#445=CARTESIAN_POINT('Origin',(-19.2,-19.2,0.));
#446=CARTESIAN_POINT('',(-24.475,-19.2,-7.5));
#447=CARTESIAN_POINT('',(-24.475,-19.2,0.));
#448=CARTESIAN_POINT('Origin',(-19.2,-19.2,-7.5));
#449=CARTESIAN_POINT('Origin',(-19.2,-19.2,-7.5));
#450=CARTESIAN_POINT('',(-21.75,-19.2,-7.5));
#451=CARTESIAN_POINT('Origin',(-19.2,-19.2,-7.5));
#452=CARTESIAN_POINT('Origin',(-19.2,19.2,0.));
#453=CARTESIAN_POINT('',(-24.475,19.2,0.));
#454=CARTESIAN_POINT('Origin',(-19.2,19.2,0.));
#455=CARTESIAN_POINT('',(-24.475,19.2,-7.5));
#456=CARTESIAN_POINT('',(-24.475,19.2,0.));
#457=CARTESIAN_POINT('Origin',(-19.2,19.2,-7.5));
#458=CARTESIAN_POINT('Origin',(-19.2,19.2,-7.5));
#459=CARTESIAN_POINT('',(-21.75,19.2,-7.5));
#460=CARTESIAN_POINT('Origin',(-19.2,19.2,-7.5));
#461=CARTESIAN_POINT('Origin',(19.2,-19.2,0.));
#462=CARTESIAN_POINT('',(13.925,-19.2,0.));
#463=CARTESIAN_POINT('Origin',(19.2,-19.2,0.));
#464=CARTESIAN_POINT('',(13.925,-19.2,-7.5));
#465=CARTESIAN_POINT('',(13.925,-19.2,0.));
#466=CARTESIAN_POINT('Origin',(19.2,-19.2,-7.5));
#467=CARTESIAN_POINT('Origin',(19.2,-19.2,-7.5));
#468=CARTESIAN_POINT('',(16.65,-19.2,-7.5));
#469=CARTESIAN_POINT('Origin',(19.2,-19.2,-7.5));
#470=CARTESIAN_POINT('Origin',(19.2,19.2,0.));
#471=CARTESIAN_POINT('',(13.925,19.2,0.));
#472=CARTESIAN_POINT('Origin',(19.2,19.2,0.));
#473=CARTESIAN_POINT('',(13.925,19.2,-7.5));
#474=CARTESIAN_POINT('',(13.925,19.2,0.));
#475=CARTESIAN_POINT('Origin',(19.2,19.2,-7.5));
#476=CARTESIAN_POINT('Origin',(19.2,19.2,-7.5));
#477=CARTESIAN_POINT('',(16.65,19.2,-7.5));
#478=CARTESIAN_POINT('Origin',(19.2,19.2,-7.5));
#479=CARTESIAN_POINT('Origin',(-19.2,-19.2,0.));
#480=CARTESIAN_POINT('',(-21.75,-19.2,-12.));
#481=CARTESIAN_POINT('Origin',(-19.2,-19.2,-12.));
#482=CARTESIAN_POINT('',(-21.75,-19.2,0.));
#483=CARTESIAN_POINT('Origin',(19.2,-19.2,0.));
#484=CARTESIAN_POINT('',(16.65,-19.2,-12.));
#485=CARTESIAN_POINT('Origin',(19.2,-19.2,-12.));
#486=CARTESIAN_POINT('',(16.65,-19.2,0.));
#487=CARTESIAN_POINT('Origin',(19.2,19.2,0.));
#488=CARTESIAN_POINT('',(16.65,19.2,-12.));
#489=CARTESIAN_POINT('Origin',(19.2,19.2,-12.));
#490=CARTESIAN_POINT('',(16.65,19.2,0.));
#491=CARTESIAN_POINT('Origin',(-19.2,19.2,0.));
#492=CARTESIAN_POINT('',(-21.75,19.2,-12.));
#493=CARTESIAN_POINT('Origin',(-19.2,19.2,-12.));
#494=CARTESIAN_POINT('',(-21.75,19.2,0.));
#495=CARTESIAN_POINT('Origin',(0.,0.,0.));
#496=CARTESIAN_POINT('',(-35.125,-4.44089209850063E-15,-12.));
#497=CARTESIAN_POINT('Origin',(0.,0.,-12.));
#498=CARTESIAN_POINT('',(-35.125,-4.30157188200508E-15,0.));
#499=CARTESIAN_POINT('',(-35.125,4.30157188200508E-15,0.));
#500=CARTESIAN_POINT('Origin',(0.,0.,0.));
#501=CARTESIAN_POINT('Origin',(0.,0.,0.));
#502=CARTESIAN_POINT('Origin',(0.,0.,-12.));
#503=UNCERTAINTY_MEASURE_WITH_UNIT(LENGTH_MEASURE(0.01),#507,
'DISTANCE_ACCURACY_VALUE',
'Maximum model space distance between geometric entities at asserted c
onnectivities');
#504=UNCERTAINTY_MEASURE_WITH_UNIT(LENGTH_MEASURE(0.01),#507,
'DISTANCE_ACCURACY_VALUE',
'Maximum model space distance between geometric entities at asserted c
onnectivities');
#505=(
GEOMETRIC_REPRESENTATION_CONTEXT(3)
GLOBAL_UNCERTAINTY_ASSIGNED_CONTEXT((#503))
GLOBAL_UNIT_ASSIGNED_CONTEXT((#507,#509,#510))
REPRESENTATION_CONTEXT('','3D')
);
#506=(
GEOMETRIC_REPRESENTATION_CONTEXT(3)
GLOBAL_UNCERTAINTY_ASSIGNED_CONTEXT((#504))
GLOBAL_UNIT_ASSIGNED_CONTEXT((#507,#509,#510))
REPRESENTATION_CONTEXT('','3D')
);
#507=(
LENGTH_UNIT()
NAMED_UNIT(*)
SI_UNIT(.MILLI.,.METRE.)
);
#508=(
LENGTH_UNIT()
NAMED_UNIT(*)
SI_UNIT($,.METRE.)
);
#509=(
NAMED_UNIT(*)
PLANE_ANGLE_UNIT()
SI_UNIT($,.RADIAN.)
);
#510=(
NAMED_UNIT(*)
SI_UNIT($,.STERADIAN.)
SOLID_ANGLE_UNIT()
);
#511=SHAPE_DEFINITION_REPRESENTATION(#512,#513);
#512=PRODUCT_DEFINITION_SHAPE('',$,#515);
#513=SHAPE_REPRESENTATION('',(#295),#505);
#514=PRODUCT_DEFINITION_CONTEXT('part definition',#519,'design');
#515=PRODUCT_DEFINITION('stack-light','stack-light v3',#516,#514);
#516=PRODUCT_DEFINITION_FORMATION('',$,#521);
#517=PRODUCT_RELATED_PRODUCT_CATEGORY('stack-light v3','stack-light v3',
(#521));
#518=APPLICATION_PROTOCOL_DEFINITION('international standard',
'automotive_design',2009,#519);
#519=APPLICATION_CONTEXT(
'Core Data for Automotive Mechanical Design Process');
#520=PRODUCT_CONTEXT('part definition',#519,'mechanical');
#521=PRODUCT('stack-light','stack-light v3',$,(#520));
#522=PRESENTATION_STYLE_ASSIGNMENT((#523));
#523=SURFACE_STYLE_USAGE(.BOTH.,#524);
#524=SURFACE_SIDE_STYLE('',(#525));
#525=SURFACE_STYLE_FILL_AREA(#526);
#526=FILL_AREA_STYLE('Plastic - Matte (Black)',(#527));
#527=FILL_AREA_STYLE_COLOUR('Plastic - Matte (Black)',#528);
#528=COLOUR_RGB('Plastic - Matte (Black)',0.0980392156862745,0.0980392156862745,
0.0980392156862745);
ENDSEC;
END-ISO-10303-21;
